Make your own free website on Tripod.com
Title: Russian Roulette
Artist: Tsunami Bomb
Tabbed by: alexikokopops (blame_jesus@hotmail.com)

> means repeat numerous times
~ means let it ring

MAIN RIFF
G|---------------------------------------------------------
D|---------------------------------------------------------
A|-----3-3-------1-----------------------------------------
E|-1-1-----4-4-3-------------------------------------------

WOAH BRIDGE
G|---------------------------------------------------------
D|---------------------------------------------------------
A|-1>-4>---------------------1>-4>-------------------------
E|-------1-0-1-0-1-0-1-0-1-0-------1>----------------------

G|---------------------------------------------------------
D|---------------------------------------------------------
A|-1>-4>---------------------1>-4>-8~----------------------
E|-------1-0-1-0-1-0-1-0-1-0-------------------------------

SHOUTING BRIDGE
G|---------------------------------------------------------
D|---------------------------------------------------------
A|---------------------------------------------------------
E|-1-1-----------------------------------------------------