Make your own free website on Tripod.com
Title: Say It If You Mean It
Artist: Tsunami Bomb
Tabbed by: alexikokopops (blame_jesus@hotmail.com)

> means repeat numerous times
~ means let it ring

INTRO RIFF
G|---------------------------------------------------------
D|---------------------------------------------------------
A|--------5>-----------5>-7>-7-5---------------------------
E|-7-7-------5>-7-7----------------------------------------

MAIN RIFF
G|---------------------------------------------------------
D|---------------------------------------------------------
A|----5>---------------------------------------------------
E|-7>----5>-3>-5>------------------------------------------

BRIDGE
G|---------------------------------------------------------
D|---------------------------------------------------------
A|-----------5-5--5-5--------------------------------------
E|-3-3--3-3------------5-5--5-5--7-7--5-5------------------

G|---------------------------------------------------------
D|---------------------------------------------------------
A|----5>---------------------------------------------------
E|-3>----5>-7>-5>------------------------------------------

HIGH SINGING BRIDGE (bass comes in halfway through)
G|---------------------------------------------------------
D|---------------------------------------------------------  x2
A|----5>----7>-5>------------------------------------------
E|-7>----5>------------------------------------------------

G|---------------------------------------------------------
D|---------------------------------------------------------
A|-----5-5-------------------------------------------------
E|-0-0-----------------------------------------------------

ENDING
G|---------------------------------------------------------
D|---------------------------------------------------------
A|--------------5-5-----------------5-5--------------------
E|-3-3-3>--3-3-------7-7--7-7--3-3-------7~----------------