Make your own free website on Tripod.com
**TSUNAMI BOMB TABS**

Home

Bass Tabs
Guitar Tabs
Related Links
Holla!
Planet Schmanet, Janet

Intro:          

              (Scream!)

e|---------------|------------------------|

B|---------------|------------------------|

G|--9--10--7--6--|--7-7--4-4--7-7--4-4----|

D|--9--10--7--6--|--7-7--4-4--7-7--4-4----|

A|--7--8---5--4--|--5-5--2-2--5-5--2-2----|

E|---------------|------------------------|

                  

           

Verse Riff 1: Same as above^ repeated many times.

"I'll tell you once, I wont tell you twice..."

e|--------------------------------------|

B|--------------------------------------|

G|--7-7--4-4--7-7--4-4--7-7--4-4--------|

D|--7-7--4-4--7-7--4-4--7-7--4-4--------|

A|--5-5--2-2--5-5--2-2--5-5--2-2--------|

E|--------------------------------------|

 

Verse Riff 2:

I"'ve laid the seed, it should be all you need..."

e|---|-----------------------------------------|

B|---|-----------------------------------------|

G|-7-|------------7-7--7-7---------------------|

D|-7-|--7-7--7-7--7-7--7-7--9-9--9-9--9-9--9-9-|

A|-5-|--7-7--7-7--5-5--5-5--9-9--9-9--9-9--9-9-|

E|---|--5-5--5-5------------7-7--7-7--7-7--7-7-|

 

(Verse Riff 2 continued)

e|-----------------|

B|-----------------|

G|-----------------|

D|-5-5--5-5--77777-|

A|-5-5--5-5--77777-|

E|-3-3--3-3--55555-|

 

Then play:

Verse Riff 1: "You gotta block, take my advice..."

Then:

"The transducer will seduce ya..."

e|---|------------------------|

B|---|------------------------|

G|-7-|------------7-7--7-7----|

D|-7-|--7-7--7-7--7-7--7-7--9-|

A|-5-|--7-7--7-7--5-5--5-5--9-|

E|---|--5-5--5-5------------7-|

 

Interlude: drums and bass and dialogue

After: "We're trapped!"

Guitar comes back:

"It's something you'll get used to..."

e|----------------------------|---|

B|----------------------------|---|

G|----------------------------|-7-|

D|--9-9--9-9--5-5--5-5--77777-|-7-|

A|--9-9--9-9--5-5--5-5--77777-|-5-|

E|--7-7--7-7--3-3--3-3--55555-|---|

 

Interlude: bass, drums, dialogue

After: "You mean its gonna send us..."

Guitar comes back on:

"Planet!   Shmanet! Janet!"

e|------------------------|

B|------------------------|

G|------7----4----7-4-----|

D|------7----4----7-4-----|

A|------5----2----5-2-----|

E|------------------------|

 

Then Play:

Verse Riff 1: "You better wise up..."

Then:

"STOP!!"

e|-----|----------------------|------|

B|-----|----------------------|------|

G|-----|---------------7------|-9-11-|

D|--7~-|-5------8------x(12x)-|-x-x--|

A|--7~-|-5(8x)--8(x8)--5------|-7-9--|

E|--5~-|-3------5-------------|------|

 

Play that last Riff once, then repeat it again but instead of playing those last 2 chords that I separated at the end, play this little riff:

e|--------------|

B|--------------|

G|--6h7p6-4-----|

D|----------7-5-|

A|--------------|

E|--------------|

 

Repeat the last Riff again as it was played the first time and end with this chord:

e|-------|

B|-------|

G|-------|

D|--5-5--|

A|--5-5--|

E|--3-3--|

 

This is a fun song! Hope you like it.

Tab By: Oscar