Make your own free website on Tripod.com
**TSUNAMI BOMB TABS**

Home

Bass Tabs
Guitar Tabs
Related Links
Holla!
The Simple Truth

 I realize this isn't 100% correct, but what is? The songs Mike is doing are more complicated than the old ones, and so I'm trying my best here.

Intro:

E|----------------------------------------|

B|----------------------------------------|

G|--5--5-7--7-9--9-10-9-x----------9-9-9--|

D|--x--x-x--x-x--x-x--x-x--33-3-3--x-x-x--|

A|--3--3-5--5-7--7-8--7-x--33-3-3--7-7-7--|

E|-------------------------11-1-1---------|

 

e|-----------------------------|

B|-----------------------------|

G|----------9-9-9--------------|

D|--55-5-5--x-x-x--3---3---3~--|

A|--55-5-5--7-7-7--3---3---3~--|

E|--33-3-3---------1-x-1-x-1~--|

 

Verse Riff: (palm muted)

   "Even though I'm always gone..."

e|-----------------------------|--------------------------|

B|-----------------------------|-6---6-5---5---5--------5-|

G|-555555----------------------|---5---------5-----5------|

D|-555555--333333--55555-333333|-----------------7--------|

A|-333333--333333--55555-333333|----------------------3---|

E|---------111111--33333-111111|--------------------------|

  [--------play 4 times--------]

 

 

e|--------------------------------------------------------|

B|-----5---6p5-------5---6p5-------5--6p5-------5---8-6-5-|

G|-5-5---5----5--5-5---5----5--5-5---5----5--5-5---5------|

D|--------------------------------------------------------|

A|--------------------------------------------------------|

E|--------------------------------------------------------|

  [------------------------play 2 times------------------]

 

e|------------------------------------------------------|

B|-----5---6p5-------5---6p5-------5--6p5-6p5----8-6-5--|

G|-5-5---5----5--5-5---5----5--5-5---5----5-----5-------|

D|------------------------------------------------------|

A|------------------------------------------------------|

E|------------------------------------------------------|

 

Chorus Riff:

  "You're part of me, it's so easy to see..."

e|----------------------------------------|-----------|

B|----------------------------------------|-----------|

G|-5-5------------------------------------|-----------|

D|-5-5--5-5--7-7--5-5--3-3--3-3--5-5--5-5-|-3---3---3-|

A|-3-3--5-5--7-7--5-5--3-3--3-3--5-5--5-5-|-3---3---3-|

E|------3-3--5-5--3-3--1-1--1-1--3-3--3-3-|-1-x-1-x-1-|

   [--play 3 times, then the 4th, end with this^-----]

 

After the Chorus Riff, start again from the Verse Riff and up to the Chorus, and then Mike breaks it down sort of like this! (The little pull-offs might not be exactly correct, but as far as I can hear, that's how it goes. It sounds good, anyway!)

e|---------------------------------|

B|---------------------------------|

G|------------------------55-55----|

D|-3333333--3333333-77-77-55-55----|

A|-3333333--3333333-77-77-33-33----|

E|-1111111--1111111-55-55----------|

  [------play this 2 times-------]

 

e|--------------------------------------------------------|

B|--------------------------------------------------------|

G|-------------------------------------------------55-55--|

D|-3333333-------------3333333-------------77-77---55-55--|

A|-3333333-3p2p0-------3333333-3p2p0-------77-77---33-33--|

E|-1111111-------3p1p0-1111111-------3p1p0-55-55----------|

   [-----------------play this 2 times-------------------]

 

After this little breakdown, the Chorus Riff is repeated again and then the song ends like this. It starts as one guitar picking notes, and then is joined by another guitar doing chords. I'll note both of them.

 

e|-----------------------|

B|-----5----5----5----5--|

G|--5--------------5-----|

D|-------3----5----------|

A|-----------------------|

E|-----------------------| 

  [--repeat until end--]

 

e|-------------------------------|

B|-------------------------------|

G|--555555-----------------------|

D|--555555--333333--55555-333333-|

A|--333333--333333--55555-333333-|

E|----------111111--33333-111111-|

  [----the background chords----]

 

Ok, so that's it. Hope you understand everything. If you don't, e-mail me or something. 

Tab By: Me