Make your own free website on Tripod.com
**TSUNAMI BOMB TABS**

Home

Bass Tabs
Guitar Tabs
Related Links
Holla!
The Invasion From Within

 

Intro is keyboards, then bass, then guitar.

e|-----------------------------------|

B|-----------------------------------|

G|-----------------------------------|

D|--5-5---5-5--5-5---5-5-5-5-5-5-5-5-|

A|--5-5---5-5--5-5---5-5-5-5-5-5-5-5-|

E|--3-3---3-3--3-3---3-3-3-3-3-3-3-3-|

 

 

"Enemy! Inside of me!"

e|----------------------------------------|

B|----------------------------------------|

G|-----------7-7-7-7--8-8-8-8--10-10--8-8-|

D|--5-5-5-5--7-7-7-7--8-8-8-8--10-10--8-8-|

A|--5-5-5-5--5-5-5-5--6-6-6-6--8--8---6-6-|

E|--3-3-3-3-------------------------------|

 

On this next riff, the chords that are really close together are picked fast using down/up strokes. The chords that arent close are picked with down strokes. Or you can pick them however the hell you want to make it easy on you.

 

"Im caught,I cannot kick them out" played till "their every wish is my..." 

e|--------------------------------------------------|

B|--------------------------------------------------|

G|--------------7-7-7--77--8-8-8--88--10-1010-8--88-|

D|--55-5-5-5-55-7-7-7--77--8-8-8--88--10-1010-8--88-|

A|--55-5-5-5-55-5-5-5--55--6-6-6--66--8--8-8--6--66-|

E|--33-3-3-3-33-------------------------------------|

 

 

   "Co- maaaand. No way out!"

e|--------|

B|--------|

G|--5--7--|

D|--5--7--|

A|--3--5--|

E|--------|

 

Everything repeats from the riff after the intro starting with the lyrics "I'll feed them, you'll too" After its repeated, then the "Enemy! Inside of me!" riff is played three times and finished like this.

 

e|--------------------------|

B|--------------------------|

G|--7--7-7-7-7-7--7-5-------|

D|--7--7-7-7-7-7--7-5-8-7-5-|

A|--5--5-5-5-5-5--5-3-8-7-5-|

E|--------------------6-5-3-|

 

Then comes an interlude or something like that, and it goes like this:

 

 

                             Repeat this 4 times.

e|------------------|       e|------------------|

B|------------------|       B|------------------|

G|------------------|       G|----4-3-----------|

D|--2--222222222222-|       D|--2-4-3-5-2-5-4-3-|

A|--2--222222222222-|       A|--2-2-1-5-2-5-4-3-|

E|--0--000000000000-|       E|--0-----3-0-3-2-1-|

 

After that you play the "Enemy! Inside of me!" riff and the little two-chord riff that usually follows it (I wrote it in as the "Co-maaand" riff.) And thats it; its a fun song. Hope it helps.

Tab by: Oscar